Hotel Parma Mare

Albergo 3 stelle con giardino, situato a Marina di Massa

Le Camere

Aria Condizionata, TV SAT, Internet Wi-Fi
Frigo Bar e Bagno Privato

Tariffe // Hotel Parma Mare

Prezzi in Euro
Per Camera al Giorno
Periodo Bed & Breakfast
Dal Al Singola Doppia Doppia
uso Singola
02-01-2017 05-01-2017 40,00 50,00 50,00
06-01-2017 07-01-2017 50,00 60,00 60,00
08-01-2017 01-02-2017 40,00 50,00 50,00
02-02-2017 05-02-2017 40,00 60,00 50,00
06-02-2017 18-02-2017 40,00 60,00 50,00
19-02-2017 22-02-2017 60,00 60,00 60,00
23-02-2017 28-03-2017 40,00 60,00 50,00
29-03-2017 31-03-2017 50,00 60,00 60,00
01-04-2017 13-04-2017 40,00 60,00 50,00
14-04-2017 17-04-2017 - - -
18-04-2017 21-04-2017 40,00 60,00 50,00
22-04-2017 01-05-2018 ----------- --------------- ---------------
01-05-2017 19-05-2017 40,00 60,00 50,00
20-05-2017 31-05-2017 --------------- ------------ ---------------
01-06-2017 04-06-2017 --------------- --------------- ---------------
04-06-2017 11-06-2017 --------------- --------------- ---------------
11-06-2017 30-06-2017 60,00 90,00 --------------
01-07-2017 29-07-2017 ----------- ------------ --------------
29-07-2017 05-08-2017 ----------- ------------ --------------
05-08-2017 20-08-2017 ----------- ------------ --------------
20-08-2017 27-08-2017 ----------- ------------ ---------------
27-08-2017 03-09-2017 ----------- ------------ ---------------
03-09-2017 10-09-2017 ----------- ------------ --------------
10-09-2017 24-09-2017 ----------- ------------ 80,00
24-09-2017 30-09-2017 ----------- ------------ 50,00
30-09-2017 22-12-2017 40,00 60,00 50,00
Prezzi in Euro
Per Persona al Giorno
Periodo Mezza Pensione Pensione Completa
Dal Al (Min. 3gg) (Min. 3gg)
02-01-2017 05-01-2017 ---------- -----------
06-01-2017 07-01-2017 ---------- -----------
08-01-2017 01-02-2017 ---------- -----------
02-02-2017 05-02-2017 ---------- -----------
06-02-2017 18-02-2017 ---------- -----------
19-02-2017 22-02-2017 ---------- -----------
23-02-2017 28-03-2017 ---------- -----------
29-03-2017 31-03-2017 ---------- -----------
01-04-2017 13-04-2017 ---------- -----------
14-04-2017 17-04-2017 65,00 70,00
18-04-2017 21-04-2017 ---------- -----------
22-04-2017 01-05-2018 55,00 60,00
01-05-2017 19-05-2017 ---------- -----------
20-05-2017 31-05-2017 45,00 50,00
01-06-2017 04-06-2017 60,00 65,00
04-06-2017 11-06-2017 45,00 50,00
11-06-2017 30-06-2017 55,00 60,00
01-07-2017 29-07-2017 65,00 70,00
29-07-2017 05-08-2017 70,00 75,00
05-08-2017 20-08-2017 85,00 90,00
20-08-2017 27-08-2017 70,00 75,00
27-08-2017 03-09-2017 60,00 65,00
03-09-2017 10-09-2017 55,00 60,00
10-09-2017 24-09-2017 45,00 50,00
24-09-2017 30-09-2017 45,00 50,00
30-09-2017 22-12-2017 ----------- ---------------
  • Durante i weekend e le manifestazioni fieristiche i prezzi potrebbero subire delle variazioni. Si prega di contattare la direzione dell'hotel;
  • Piano famiglia: 2 bambini fino a 12 anni in camera con 2 adulti = 3 Quote intere + 1 GRATIS (7 giorni minimo)
  • Bambini in camera con due adulti:
    • Bambino 0-6 anni -50%;
    • Bambino 7-12 anni -30%;
    • Terzo letto per adulto (o ragazzo da 12 anni in poi) -10%;
    • Quarto letto per adulto (o bambino > 12 anni) - 40%.
  • ANIMALI, ANCHE SE DI PICCOLA TAGLIA, NON AMMESSI
  • Nel trattamento di Pensione Completa e di Mezza Pensione bevande e spiaggia non sono comprese nella tariffa.
  • Per soggiorni di lavoro e/o convenzioni con ditte, chiedere direttamente all'Hotel
  • Camere disponibili dalle ore 12 (g. di arrivo) fino alle ore 10 (g. di partenza)
  • L'hotel è aperto tutto l'anno
  • Spiaggia convenzionata;
  • Accesso Internet a banda larga e WiFi gratis

Prenotazioni - disdette - partenze anticipate:
  • - Al momento della conferma della Vostra prenotazione, Vi chiederemo di inviarci una caparra per ogni camera prenotata, a mezzo vaglia postale o bonifico bancario. Al ricevimento della caparra su indicata, Vi confermeremo via fax o posta elettronica la prenotazione del Vs. soggiorno.
  • -In caso di disdetta comunicata entro 30 giorni dalla data di arrivo prevista per il Vs. soggiorno, la caparra verrà rimborsata completamente, detratte le spese dell'operazione. Se la disdetta avviene con almeno 15 giorni di anticipo sulla data di arrivo prevista, potrà essere da Voi recuperata entro l'anno solare della disdetta, per un altro soggiorno della durata di almeno 7 giorni. Per disdette comunicate successivamente, la caparra sarà interamente trattenuta.
  • - In caso di partenza anticipata, Vi verrà addebitato il costo della sola camera per tutti i giorni prenotati e non fruiti.
Prezzi in Euro
Per Camera al Giorno Per Persona al Giorno
Periodo Bed & Breakfast Mezza Pensione Pensione Completa
Dal Al Singola Doppia Doppia
uso Singola
(Min. 3gg) (Min. 3gg)
02-01-2017 05-01-2017 40,00 50,00 50,00 ---------- -----------
06-01-2017 07-01-2017 50,00 60,00 60,00 ---------- -----------
08-01-2017 01-02-2017 40,00 50,00 50,00 ---------- -----------
02-02-2017 05-02-2017 40,00 60,00 50,00 ---------- -----------
06-02-2017 18-02-2017 40,00 60,00 50,00 ---------- -----------
19-02-2017 22-02-2017 60,00 60,00 60,00 ---------- -----------
23-02-2017 28-03-2017 40,00 60,00 50,00 ---------- -----------
29-03-2017 31-03-2017 50,00 60,00 60,00 ---------- -----------
01-04-2017 13-04-2017 40,00 60,00 50,00 ---------- -----------
14-04-2017 17-04-2017 - - - 65,00 70,00
18-04-2017 21-04-2017 40,00 60,00 50,00 ---------- -----------
22-04-2017 01-05-2018 ----------- --------------- --------------- 55,00 60,00
01-05-2017 19-05-2017 40,00 60,00 50,00 ---------- -----------
20-05-2017 31-05-2017 --------------- ------------ --------------- 45,00 50,00
01-06-2017 04-06-2017 --------------- --------------- --------------- 60,00 65,00
04-06-2017 11-06-2017 --------------- --------------- --------------- 45,00 50,00
11-06-2017 30-06-2017 60,00 90,00 -------------- 55,00 60,00
01-07-2017 29-07-2017 ----------- ------------ -------------- 65,00 70,00
29-07-2017 05-08-2017 ----------- ------------ -------------- 70,00 75,00
05-08-2017 20-08-2017 ----------- ------------ -------------- 85,00 90,00
20-08-2017 27-08-2017 ----------- ------------ --------------- 70,00 75,00
27-08-2017 03-09-2017 ----------- ------------ --------------- 60,00 65,00
03-09-2017 10-09-2017 ----------- ------------ -------------- 55,00 60,00
10-09-2017 24-09-2017 ----------- ------------ 80,00 45,00 50,00
24-09-2017 30-09-2017 ----------- ------------ 50,00 45,00 50,00
30-09-2017 22-12-2017 40,00 60,00 50,00 ----------- ---------------
  • Durante i weekend e le manifestazioni fieristiche i prezzi potrebbero subire delle variazioni. Si prega di contattare la direzione dell'hotel;
  • Piano famiglia: 2 bambini fino a 12 anni in camera con 2 adulti = 3 Quote intere + 1 GRATIS (7 giorni minimo)
  • Bambini in camera con due adulti:
    • Bambino 0-6 anni -50%;
    • Bambino 7-12 anni -30%;
    • Terzo letto per adulto (o ragazzo da 12 anni in poi) -10%;
    • Quarto letto per adulto (o bambino > 12 anni) - 40%.
  • ANIMALI, ANCHE SE DI PICCOLA TAGLIA, NON AMMESSI
  • Nel trattamento di Pensione Completa e di Mezza Pensione bevande e spiaggia non sono comprese nella tariffa.
  • Per soggiorni di lavoro e/o convenzioni con ditte, chiedere direttamente all'Hotel
  • Camere disponibili dalle ore 12 (g. di arrivo) fino alle ore 10 (g. di partenza)
  • L'hotel è aperto tutto l'anno
  • Spiaggia convenzionata;
  • Accesso Internet a banda larga e WiFi gratis

Prenotazioni - disdette - partenze anticipate:
  • - Al momento della conferma della Vostra prenotazione, Vi chiederemo di inviarci una caparra per ogni camera prenotata, a mezzo vaglia postale o bonifico bancario. Al ricevimento della caparra su indicata, Vi confermeremo via fax o posta elettronica la prenotazione del Vs. soggiorno.
  • -In caso di disdetta comunicata entro 30 giorni dalla data di arrivo prevista per il Vs. soggiorno, la caparra verrà rimborsata completamente, detratte le spese dell'operazione. Se la disdetta avviene con almeno 15 giorni di anticipo sulla data di arrivo prevista, potrà essere da Voi recuperata entro l'anno solare della disdetta, per un altro soggiorno della durata di almeno 7 giorni. Per disdette comunicate successivamente, la caparra sarà interamente trattenuta.
  • - In caso di partenza anticipata, Vi verrà addebitato il costo della sola camera per tutti i giorni prenotati e non fruiti.

I cookie ci aiutano a fornire i nostri servizi e non servono a raccogliere alcun dato identificativo personale. Utilizzando i nostri servizi, accetti l'utilizzo dei cookie da parte nostra. OK

Partita I.V.A.: 00287510457