Hotel Parma Mare

Albergo 3 stelle con giardino, situato a Marina di Massa

Le Camere

Aria Condizionata, TV SAT, Internet Wi-Fi
Frigo Bar e Bagno Privato

Tariffe // Hotel Parma Mare

Prezzi in Euro
Per Camera al Giorno
Periodo Bed & Breakfast
Dal Al Singola Doppia Doppia
uso Singola
05-02-2020 07-02-2020 60,00 60,00 60,00
08-02-2020 29-02-2020 50,00 60,00 50,00
29-02-2020 04-03-2020 60,00 70,00 60,00
05-03-2020 09-04-2020 50,00 60,00 50,00
09-04-2020 13-04-2020 80,00 100,00 ------------
14-04-2020 30-04-2020 50,00 60,00 50,00
30-04-2020 03-05-2020 60,00 70,00 60,00
04-05-2020 28-05-2020 50,00 60,00 50,00
29-05-2020 02-06-2020 ------------ --------------- ---------------
03-06-2020 13-06-2020 --------------- --------------- ---------------
13-06-2020 20-06-2020 --------------- --------------- ---------------
20-06-2020 27-06-2020 ----------- --------------- ------------
27-06-2020 01-08-2020 ----------- ----------- ------------
01-08-2020 08-08-2020 ----------- ------------ --------------
08-08-2020 16-08-2020 --------------- --------------- --------------
16-08-2020 23-08-2020 --------------- --------------- ---------------
23-08-2020 30-08-2020 ----------- --------------- ---------------
30-08-2020 06-09-2020 ----------- --------------- ------------
06-09-2020 13-09-2020 ----------- --------------- ------------
13-09-2020 27-09-2020 ----------- --------------- ------------
27-09-2020 08-10-2020 50,00 60,00 50,00
09-10-2020 11-10-2020 60,00 70,00 60,00
12-10-2020 29-10-2020 50,00 60,00 50,00
30-10-2020 01-11-2020 50,00 70,00 60,00
02-11-2020 23-12-2020 50,00 60,00 50,00
Prezzi in Euro
Per Persona al Giorno
Periodo Mezza Pensione Pensione Completa
Dal Al (Min. 3gg) (Min. 3gg)
05-02-2020 07-02-2020 --------------- ---------------
08-02-2020 29-02-2020 --------------- ---------------
29-02-2020 04-03-2020 --------------- ---------------
05-03-2020 09-04-2020 --------------- ---------------
09-04-2020 13-04-2020 --------------- ---------------
14-04-2020 30-04-2020 ----------- -----------
30-04-2020 03-05-2020 60,00 70,00
04-05-2020 28-05-2020 45,00 55,00
29-05-2020 02-06-2020 60,00 70,00
03-06-2020 13-06-2020 45,00 50,00
13-06-2020 20-06-2020 55,00 60,00
20-06-2020 27-06-2020 60,00 65,00
27-06-2020 01-08-2020 65,00 70,00
01-08-2020 08-08-2020 80,00 85,00
08-08-2020 16-08-2020 85,00 90,00
16-08-2020 23-08-2020 75,00 80,00
23-08-2020 30-08-2020 65,00 70,00
30-08-2020 06-09-2020 55,00 60,00
06-09-2020 13-09-2020 50,00 55,00
13-09-2020 27-09-2020 45,00 50,00
27-09-2020 08-10-2020 --------------- ---------------
09-10-2020 11-10-2020 --------------- ---------------
12-10-2020 29-10-2020 --------------- ---------------
30-10-2020 01-11-2020 --------------- ---------------
02-11-2020 23-12-2020 --------------- ---------------
  • Durante i week-end le tariffe potrebbero subire delle variazioni;
  • Bambini in camera con due adulti:
    • Bambino 0-6 anni -50%;
    • Bambino 6-12 anni -30%;
    • Terzo letto per adulto (o ragazzo da 13 anni in poi) -10%.
  • Supplementi:
    • Culla (al giorno) € 15,00;
    • Bambino in più che dorme nei letti già presenti € 25,00 (solo per il B&B)
    • Singola in mezza pensione e pensione completa (al giorno) + 10 Euro;
    • Pasto aggiuntivo da € 25,00 a € 30,00;
  • Piano famiglia: 2 bambini fino a 10 anni in camera con 2 adulti = 3 Quote intere + 1 GRATIS (7 giorni minimo in Pensione Completa);
  • Per soggiorni di lavoro e/o convenzioni con ditte, chiedere direttamente all'hotel (sconti speciali);
  • L'hotel è aperto tutto l'anno;
  • Wi-Fi gratuito;
  • Spiaggia convenzionata;
  • Camere disponibili dalle ore 12.00 (Giorno di arrivo) fino alle ore 10.00 (Giorno di partenza).

Nel trattamento di mezza pensione e di pensione completa le bevande consumate durante i pasti sono escluse dalla tariffa.

Nel trattamento All INCLUSIVE le bevande e la spiaggia sono comprese nella tariffa.

ANIMALI, ANCHE SE DI PICCOLA TAGLIA, NON AMMESSI


Prenotazioni - disdette - partenze anticipate:
  • - Al momento della conferma della Vostra prenotazione, Vi chiederemo di inviarci una caparra per ogni camera prenotata, a mezzo vaglia postale, bonifico bancario o prelievo a distanza con carta di credito.
  • - In caso di disdetta comunicata entro 30 giorni dalla data di arrivo prevista per il Vs. soggiorno, la caparra verrà rimborsata completamente, detratte le spese dell'operazione. Se la disdetta avviene con almeno 15 giorni di anticipo sulla data di arrivo prevista, potrà essere da Voi recuperata entro l'anno solare della disdetta, per un altro soggiorno della durata di almeno 7 giorni. Per disdette comunicate successivamente, la caparra sarà interamente trattenuta.
  • - In caso di partenza anticipata, Vi verrà addebitato il costo della sola camera per tutti i giorni prenotati e non fruiti.
Prezzi in Euro
Per Camera al Giorno Per Persona al Giorno
Periodo Bed & Breakfast Mezza Pensione Pensione Completa
Dal Al Singola Doppia Doppia
uso Singola
(Min. 3gg) (Min. 3gg)
05-02-2020 07-02-2020 60,00 60,00 60,00 --------------- ---------------
08-02-2020 29-02-2020 50,00 60,00 50,00 --------------- ---------------
29-02-2020 04-03-2020 60,00 70,00 60,00 --------------- ---------------
05-03-2020 09-04-2020 50,00 60,00 50,00 --------------- ---------------
09-04-2020 13-04-2020 80,00 100,00 ------------ --------------- ---------------
14-04-2020 30-04-2020 50,00 60,00 50,00 ----------- -----------
30-04-2020 03-05-2020 60,00 70,00 60,00 60,00 70,00
04-05-2020 28-05-2020 50,00 60,00 50,00 45,00 55,00
29-05-2020 02-06-2020 ------------ --------------- --------------- 60,00 70,00
03-06-2020 13-06-2020 --------------- --------------- --------------- 45,00 50,00
13-06-2020 20-06-2020 --------------- --------------- --------------- 55,00 60,00
20-06-2020 27-06-2020 ----------- --------------- ------------ 60,00 65,00
27-06-2020 01-08-2020 ----------- ----------- ------------ 65,00 70,00
01-08-2020 08-08-2020 ----------- ------------ -------------- 80,00 85,00
08-08-2020 16-08-2020 --------------- --------------- -------------- 85,00 90,00
16-08-2020 23-08-2020 --------------- --------------- --------------- 75,00 80,00
23-08-2020 30-08-2020 ----------- --------------- --------------- 65,00 70,00
30-08-2020 06-09-2020 ----------- --------------- ------------ 55,00 60,00
06-09-2020 13-09-2020 ----------- --------------- ------------ 50,00 55,00
13-09-2020 27-09-2020 ----------- --------------- ------------ 45,00 50,00
27-09-2020 08-10-2020 50,00 60,00 50,00 --------------- ---------------
09-10-2020 11-10-2020 60,00 70,00 60,00 --------------- ---------------
12-10-2020 29-10-2020 50,00 60,00 50,00 --------------- ---------------
30-10-2020 01-11-2020 50,00 70,00 60,00 --------------- ---------------
02-11-2020 23-12-2020 50,00 60,00 50,00 --------------- ---------------
  • Durante i week-end le tariffe potrebbero subire delle variazioni;
  • Bambini in camera con due adulti:
    • Bambino 0-6 anni -50%;
    • Bambino 6-12 anni -30%;
    • Terzo letto per adulto (o ragazzo da 13 anni in poi) -10%.
  • Supplementi:
    • Culla (al giorno) € 15,00;
    • Bambino in più che dorme nei letti già presenti € 25,00 (solo per il B&B)
    • Singola in mezza pensione e pensione completa (al giorno) + 10 Euro;
    • Pasto aggiuntivo da € 25,00 a € 30,00;
  • Piano famiglia: 2 bambini fino a 10 anni in camera con 2 adulti = 3 Quote intere + 1 GRATIS (7 giorni minimo in Pensione Completa);
  • Per soggiorni di lavoro e/o convenzioni con ditte, chiedere direttamente all'hotel (sconti speciali);
  • L'hotel è aperto tutto l'anno;
  • Wi-Fi gratuito;
  • Spiaggia convenzionata;
  • Camere disponibili dalle ore 12.00 (Giorno di arrivo) fino alle ore 10.00 (Giorno di partenza).

Nel trattamento di mezza pensione e di pensione completa le bevande consumate durante i pasti sono escluse dalla tariffa.

Nel trattamento All INCLUSIVE le bevande e la spiaggia sono comprese nella tariffa.

ANIMALI, ANCHE SE DI PICCOLA TAGLIA, NON AMMESSI


Prenotazioni - disdette - partenze anticipate:
  • - Al momento della conferma della Vostra prenotazione, Vi chiederemo di inviarci una caparra per ogni camera prenotata, a mezzo vaglia postale, bonifico bancario o prelievo a distanza con carta di credito.
  • - In caso di disdetta comunicata entro 30 giorni dalla data di arrivo prevista per il Vs. soggiorno, la caparra verrà rimborsata completamente, detratte le spese dell'operazione. Se la disdetta avviene con almeno 15 giorni di anticipo sulla data di arrivo prevista, potrà essere da Voi recuperata entro l'anno solare della disdetta, per un altro soggiorno della durata di almeno 7 giorni. Per disdette comunicate successivamente, la caparra sarà interamente trattenuta.
  • - In caso di partenza anticipata, Vi verrà addebitato il costo della sola camera per tutti i giorni prenotati e non fruiti.