Hotel Parma Mare

3 stars hotel with garden in Marina di Massa

The Rooms

Air Conditioning, TV SAT, Internet Wi-Fi
Mini Bar and Private service

Prix // Hotel Parma Mare

Prix en Euro
Par Chambre par Jour
Périodes Bed & Breakfast
Du Au Single Double Double en
utilisation single
09-01-2018 23-02-2018 40,00 50,00 50,00
24-02-2018 28-02-2018 50,00 60,00 60,00
01-03-2018 29-03-2018 40,00 50,00 50,00
30-03-2018 02-04-2018 ------------ ------------ --------------
03-04-2018 07-04-2018 50,00 70,00 60,00
08-04-2018 20-04-2018 50,00 60,00 50,00
20-04-2018 01-05-2018 50,00 60,00 60,00
02-05-2018 20-05-2018 40,00 60,00 50,00
20-05-2018 31-05-2018 40,00 60,00 50,00
31-05-2018 03-06-2018 --------------- --------------- ---------------
03-06-2018 10-06-2018 - - -
10-06-2018 23-06-2018 --------------- --------------- ---------------
23-06-2018 30-06-2018 ----------- --------------- ---------------
30-06-2018 28-07-2018 --------------- --------------- ---------------
28-07-2018 04-08-2018 ----------- --------------- --------------
04-08-2018 19-08-2018 --------------- ------------ ---------------
19-08-2018 26-08-2018 --------------- --------------- ---------------
26-08-2018 02-09-2018 --------------- --------------- ---------------
02-09-2018 09-09-2018 --------------- --------------- --------------
09-09-2018 30-09-2018 ----------- ------------ --------------
30-09-2018 11-10-2018 40,00 50,00 50,00
12-10-2018 14-10-2018 60,00 70,00 70,00
14-10-2018 31-10-2018 40,00 50,00 50,00
01-11-2018 04-11-2018 50,00 60,00 60,00
04-11-2018 06-12-2018 40,00 50,00 50,00
07-12-2018 09-12-2018 50,00 60,00 60,00
09-12-2018 20-12-2018 40,00 50,00 50,00
Prix en Euro
Par Personne par Jour
Périodes Demi Pension Pension Complete
Du Au (Min. 3j) (Min. 3j)
09-01-2018 23-02-2018 ---------- -----------
24-02-2018 28-02-2018 ---------- -----------
01-03-2018 29-03-2018 ---------- -----------
30-03-2018 02-04-2018 65,00 70,00
03-04-2018 07-04-2018 ---------- -----------
08-04-2018 20-04-2018 --------------- -----------
20-04-2018 01-05-2018 55,00 --------------
02-05-2018 20-05-2018 ---------- -----------
20-05-2018 31-05-2018 50,00 -----------
31-05-2018 03-06-2018 65,00 70,00
03-06-2018 10-06-2018 50,00 55,00
10-06-2018 23-06-2018 60,00 55,00
23-06-2018 30-06-2018 60,00 65,00
30-06-2018 28-07-2018 65,00 70,00
28-07-2018 04-08-2018 70,00 75,00
04-08-2018 19-08-2018 85,00 90,00
19-08-2018 26-08-2018 75,00 80,00
26-08-2018 02-09-2018 65,00 70,00
02-09-2018 09-09-2018 60,00 55,00
09-09-2018 30-09-2018 50,00 55,00
30-09-2018 11-10-2018 --------------- ---------------
12-10-2018 14-10-2018 --------------- ---------------
14-10-2018 31-10-2018 --------------- ---------------
01-11-2018 04-11-2018 --- ---
04-11-2018 06-12-2018 ----------- ---------------
07-12-2018 09-12-2018 --------------- ---------------
09-12-2018 20-12-2018 --------------- ---------------
  • Pendant les ponts ou les foires, taux de Pâques appliqués (14/04-17/04);
  • Enfants partageant avec deux adultes:
    • Enfant 0-6 ans -50%;
    • Enfant 7-12 ans -30%;
    • Troisième lit pour adulte (ou enfant de plus de 12 ans) -10%.
  • Suppléments:
    • Berceau (par jour) € 15,00;
    • Extra child sleeping in the existing bed € 25,00 (just for B&B);
    • Single avec demi-pension et pension complète (par jour) + 20 Euro;
    • Déjeuner ou dîner de 25,00 à 30,00 Euro;
  • Plan famille: 2 enfants de moins de 9 ans partageant la chambre avec 2 adultes 3 adultes + 1 = gratuite (7 jours minimum);
  • Pour l'entreprise et / ou des accords avec les entreprises, demander directement à l'hôtel (tarifs spéciaux)
  • L'hôtel est ouvert toute l'année
  • Accès WiFi gratuit
  • Vélos Disponible gratuitement(during summer);
  • Plage conventionnée.
  • Les chambres sont disponibles à 12.30h (jour d'arrivée) et doivent être libérées à 9.30h (jour de départ)

PETS NOT ALLOWED


Réservation - annulation - départ anticipé:
  • - A la confirmation de votre réservation, nous vous demanderons de nous envoyer des arrhes par virement bancaire ou postal.
  • - En cas d'annulation communiquée au moins 30 jours avant la date d'arrivée prévue pour votre séjour, les arrhes vous seront intégralement remboursés, retenue faite des frais de dossier. Si l'annulation est faite au moins 15 jours avant la date prévue d'arrivée, les arrhes pourront être récupérés sur un autre séjour d'au moins 7 jours effectué avant la fin de l'année solaire de l'annulation. Après cette date, les arrhes ne sont pas remboursables.
  • - En cas de départ anticipé, sera facturé le prix des chambres pour tous les jours réservés.
Prix en Euro
Par Chambre par Jour Par Personne par Jour
Périodes Bed & Breakfast Demi Pension Pension Complete
Du Au Single Double Double en
utilisation single
(Min. 3j) (Min. 3j)
09-01-2018 23-02-2018 40,00 50,00 50,00 ---------- -----------
24-02-2018 28-02-2018 50,00 60,00 60,00 ---------- -----------
01-03-2018 29-03-2018 40,00 50,00 50,00 ---------- -----------
30-03-2018 02-04-2018 ------------ ------------ -------------- 65,00 70,00
03-04-2018 07-04-2018 50,00 70,00 60,00 ---------- -----------
08-04-2018 20-04-2018 50,00 60,00 50,00 --------------- -----------
20-04-2018 01-05-2018 50,00 60,00 60,00 55,00 --------------
02-05-2018 20-05-2018 40,00 60,00 50,00 ---------- -----------
20-05-2018 31-05-2018 40,00 60,00 50,00 50,00 -----------
31-05-2018 03-06-2018 --------------- --------------- --------------- 65,00 70,00
03-06-2018 10-06-2018 - - - 50,00 55,00
10-06-2018 23-06-2018 --------------- --------------- --------------- 60,00 55,00
23-06-2018 30-06-2018 ----------- --------------- --------------- 60,00 65,00
30-06-2018 28-07-2018 --------------- --------------- --------------- 65,00 70,00
28-07-2018 04-08-2018 ----------- --------------- -------------- 70,00 75,00
04-08-2018 19-08-2018 --------------- ------------ --------------- 85,00 90,00
19-08-2018 26-08-2018 --------------- --------------- --------------- 75,00 80,00
26-08-2018 02-09-2018 --------------- --------------- --------------- 65,00 70,00
02-09-2018 09-09-2018 --------------- --------------- -------------- 60,00 55,00
09-09-2018 30-09-2018 ----------- ------------ -------------- 50,00 55,00
30-09-2018 11-10-2018 40,00 50,00 50,00 --------------- ---------------
12-10-2018 14-10-2018 60,00 70,00 70,00 --------------- ---------------
14-10-2018 31-10-2018 40,00 50,00 50,00 --------------- ---------------
01-11-2018 04-11-2018 50,00 60,00 60,00 --- ---
04-11-2018 06-12-2018 40,00 50,00 50,00 ----------- ---------------
07-12-2018 09-12-2018 50,00 60,00 60,00 --------------- ---------------
09-12-2018 20-12-2018 40,00 50,00 50,00 --------------- ---------------
  • Pendant les ponts ou les foires, taux de Pâques appliqués (14/04-17/04);
  • Enfants partageant avec deux adultes:
    • Enfant 0-6 ans -50%;
    • Enfant 7-12 ans -30%;
    • Troisième lit pour adulte (ou enfant de plus de 12 ans) -10%.
  • Suppléments:
    • Berceau (par jour) € 15,00;
    • Extra child sleeping in the existing bed € 25,00 (just for B&B);
    • Single avec demi-pension et pension complète (par jour) + 20 Euro;
    • Déjeuner ou dîner de 25,00 à 30,00 Euro;
  • Plan famille: 2 enfants de moins de 9 ans partageant la chambre avec 2 adultes 3 adultes + 1 = gratuite (7 jours minimum);
  • Pour l'entreprise et / ou des accords avec les entreprises, demander directement à l'hôtel (tarifs spéciaux)
  • L'hôtel est ouvert toute l'année
  • Accès WiFi gratuit
  • Vélos Disponible gratuitement(during summer);
  • Plage conventionnée.
  • Les chambres sont disponibles à 12.30h (jour d'arrivée) et doivent être libérées à 9.30h (jour de départ)

PETS NOT ALLOWED


Réservation - annulation - départ anticipé:
  • - A la confirmation de votre réservation, nous vous demanderons de nous envoyer des arrhes par virement bancaire ou postal.
  • - En cas d'annulation communiquée au moins 30 jours avant la date d'arrivée prévue pour votre séjour, les arrhes vous seront intégralement remboursés, retenue faite des frais de dossier. Si l'annulation est faite au moins 15 jours avant la date prévue d'arrivée, les arrhes pourront être récupérés sur un autre séjour d'au moins 7 jours effectué avant la fin de l'année solaire de l'annulation. Après cette date, les arrhes ne sont pas remboursables.
  • - En cas de départ anticipé, sera facturé le prix des chambres pour tous les jours réservés.

Cookies help us deliver our services. By using our services, you agree to our use of cookies. GOT IT

Partita I.V.A. (TVA): 00287510457