Hotel Parma Mare

3 stars hotel with garden in Marina di Massa

The Rooms

Air Conditioning, TV SAT, Internet Wi-Fi
Mini Bar and Private service

Prix // Hotel Parma Mare

Prix en Euro
Par Chambre par Jour
Périodes Bed & Breakfast
Du Au Single Double Double en
utilisation single
06-01-2019 21-02-2019 50,00 60,00 50,00
22-02-2019 27-02-2019 60,00 70,00 60,00
28-02-2019 03-03-2019 50,00 70,00 60,00
03-03-2019 18-04-2019 50,00 60,00 50,00
19-04-2019 22-04-2019 --------------- --------------- ---------------
22-04-2019 05-05-2019 50,00 50,00 50,00
05-05-2019 02-06-2019 50,00 60,00 60,00
02-06-2019 08-06-2019 50,00 60,00 60,00
08-06-2019 22-06-2019 ----------- ---------- ------------
22-06-2019 29-06-2019 ------------- --------------- ---------------
29-06-2019 03-08-2019 --------------- --------------- ---------------
03-08-2019 10-08-2019 --------------- --------------- ---------------
10-08-2019 18-08-2019 ----------- ----------- ------------
18-08-2019 25-08-2019 ----------- ------------ --------------
25-08-2019 01-09-2019 --------------- --------------- --------------
01-09-2019 15-09-2019 --------------- --------------- ---------------
15-09-2019 29-09-2019 ----------- --------------- ---------------
Prix en Euro
Par Personne par Jour
Périodes Demi Pension Pension Complete
Du Au (Min. 3j) (Min. 3j)
06-01-2019 21-02-2019 --------------- ---------------
22-02-2019 27-02-2019
28-02-2019 03-03-2019
03-03-2019 18-04-2019 --------------- ---------------
19-04-2019 22-04-2019 65,00 75,00
22-04-2019 05-05-2019 55,00 60,00
05-05-2019 02-06-2019 50,00 55,00
02-06-2019 08-06-2019 50,00 55,00
08-06-2019 22-06-2019 55,00 60,00
22-06-2019 29-06-2019 60,00 65,00
29-06-2019 03-08-2019 65,00 70,00
03-08-2019 10-08-2019 80,00 85,00
10-08-2019 18-08-2019 85,00 90,00
18-08-2019 25-08-2019 75,00 80,00
25-08-2019 01-09-2019 65,00 70,00
01-09-2019 15-09-2019 55,00 60,00
15-09-2019 29-09-2019 50,00 55,00
  • Pendant les ponts ou les foires, taux de Pâques appliqués (14/04-17/04);
  • Enfants partageant avec deux adultes:
    • Enfant 0-6 ans -50%;
    • Enfant 6-12 ans -30%;
    • Troisième lit pour adulte (ou enfant de plus de 12 ans) -10%.
  • Suppléments:
    • Berceau (par jour) € 15,00;
    • Extra child sleeping in the existing bed € 25,00 (just for B&B);
    • Single avec demi-pension et pension complète (par jour) + 20 Euro;
    • Déjeuner ou dîner de 25,00 à 30,00 Euro;
  • Plan famille: 2 enfants de moins de 12 ans partageant la chambre avec 2 adultes 3 adultes + 1 = gratuite (7 jours minimum);
  • Pour l'entreprise et / ou des accords avec les entreprises, demander directement à l'hôtel (tarifs spéciaux)
  • L'hôtel est ouvert toute l'année
  • Accès WiFi gratuit
  • Vélos Disponible gratuitement(during summer);
  • Plage conventionnée.
  • Les chambres sont disponibles à 12.00h (jour d'arrivée) et doivent être libérées à 10.00h (jour de départ)

PETS NOT ALLOWED


Réservation - annulation - départ anticipé:
  • - A la confirmation de votre réservation, nous vous demanderons de nous envoyer des arrhes par virement bancaire ou postal.
  • - En cas d'annulation communiquée au moins 30 jours avant la date d'arrivée prévue pour votre séjour, les arrhes vous seront intégralement remboursés, retenue faite des frais de dossier. Si l'annulation est faite au moins 15 jours avant la date prévue d'arrivée, les arrhes pourront être récupérés sur un autre séjour d'au moins 7 jours effectué avant la fin de l'année solaire de l'annulation. Après cette date, les arrhes ne sont pas remboursables.
  • - En cas de départ anticipé, sera facturé le prix des chambres pour tous les jours réservés.
Prix en Euro
Par Chambre par Jour Par Personne par Jour
Périodes Bed & Breakfast Demi Pension Pension Complete
Du Au Single Double Double en
utilisation single
(Min. 3j) (Min. 3j)
06-01-2019 21-02-2019 50,00 60,00 50,00 --------------- ---------------
22-02-2019 27-02-2019 60,00 70,00 60,00
28-02-2019 03-03-2019 50,00 70,00 60,00
03-03-2019 18-04-2019 50,00 60,00 50,00 --------------- ---------------
19-04-2019 22-04-2019 --------------- --------------- --------------- 65,00 75,00
22-04-2019 05-05-2019 50,00 50,00 50,00 55,00 60,00
05-05-2019 02-06-2019 50,00 60,00 60,00 50,00 55,00
02-06-2019 08-06-2019 50,00 60,00 60,00 50,00 55,00
08-06-2019 22-06-2019 ----------- ---------- ------------ 55,00 60,00
22-06-2019 29-06-2019 ------------- --------------- --------------- 60,00 65,00
29-06-2019 03-08-2019 --------------- --------------- --------------- 65,00 70,00
03-08-2019 10-08-2019 --------------- --------------- --------------- 80,00 85,00
10-08-2019 18-08-2019 ----------- ----------- ------------ 85,00 90,00
18-08-2019 25-08-2019 ----------- ------------ -------------- 75,00 80,00
25-08-2019 01-09-2019 --------------- --------------- -------------- 65,00 70,00
01-09-2019 15-09-2019 --------------- --------------- --------------- 55,00 60,00
15-09-2019 29-09-2019 ----------- --------------- --------------- 50,00 55,00
  • Pendant les ponts ou les foires, taux de Pâques appliqués (14/04-17/04);
  • Enfants partageant avec deux adultes:
    • Enfant 0-6 ans -50%;
    • Enfant 6-12 ans -30%;
    • Troisième lit pour adulte (ou enfant de plus de 12 ans) -10%.
  • Suppléments:
    • Berceau (par jour) € 15,00;
    • Extra child sleeping in the existing bed € 25,00 (just for B&B);
    • Single avec demi-pension et pension complète (par jour) + 20 Euro;
    • Déjeuner ou dîner de 25,00 à 30,00 Euro;
  • Plan famille: 2 enfants de moins de 12 ans partageant la chambre avec 2 adultes 3 adultes + 1 = gratuite (7 jours minimum);
  • Pour l'entreprise et / ou des accords avec les entreprises, demander directement à l'hôtel (tarifs spéciaux)
  • L'hôtel est ouvert toute l'année
  • Accès WiFi gratuit
  • Vélos Disponible gratuitement(during summer);
  • Plage conventionnée.
  • Les chambres sont disponibles à 12.00h (jour d'arrivée) et doivent être libérées à 10.00h (jour de départ)

PETS NOT ALLOWED


Réservation - annulation - départ anticipé:
  • - A la confirmation de votre réservation, nous vous demanderons de nous envoyer des arrhes par virement bancaire ou postal.
  • - En cas d'annulation communiquée au moins 30 jours avant la date d'arrivée prévue pour votre séjour, les arrhes vous seront intégralement remboursés, retenue faite des frais de dossier. Si l'annulation est faite au moins 15 jours avant la date prévue d'arrivée, les arrhes pourront être récupérés sur un autre séjour d'au moins 7 jours effectué avant la fin de l'année solaire de l'annulation. Après cette date, les arrhes ne sont pas remboursables.
  • - En cas de départ anticipé, sera facturé le prix des chambres pour tous les jours réservés.
Partita I.V.A. (TVA): 00287510457